RIVIERAS Tabs, california sun
Search tabs by artist/band name or song title:  

RIVIERAS Tabs - california sun Guitar Tablatures, Chords






california sun tabs @ 911Tabs
#----------------------------------PLEASE NOTE----------------------------------#
# This file is the author's own work and represents their interpretation of the #
# song. You may only use this file for private study, scholarship, or research. #
#-------------------------------------------------------------------------------#


Date: Mon, 27 Oct 97 20:35:49 PST
From: "Stephen V. Smith" <svsmith@anet.bna.boeing.com>
Subject: TAB: California Sun by The Riverias

     California Sun - The Rivieras
     
     ! = Strike
     
     Intro:       |  Figure A:
     
     E-12-10------|-----------------------------|------------------------------|
     B-------12---|-----------------------------|------------------------------|
     G------------|-----------------------------|------------------------------|
     D------------|---------------2-2-2-2-2-2-2-|----------------6-6-6-6-6-6 6-|
     A------------|-2-2-2-2-2-2-2-0-0-0-0-0-0-0-|--2-2-2-2-2-2-2-4-4-4-4-4-4-4-|
     E------------|-0-0-0-0-0-0-0---------------|--0-0-0-0-0-0-0---------------|
                    !     !       !     !          !     !       !     !
                  |--------repeat 4X------------|
     
     E----------------------------------|
     B----------------------------------|
     G----------------------------------|
     D-2-----2--2--4-----4--4-----------|
     A-0-----0--0--2-----2--2--2--2--2--|
     E-------------------------0--0--0--|
       ^  ^  ^  ^  ^  ^  ^  ^  ^  ^  ^
     
     Figure B:
     E-----------------------------9--9-12-----|
     B--------9--- 12-12----12-12----------12--|
     G--9--9-----------------------------------|
     D-----------------------------------------|
     A-----------------------------------------|
     E-----------------------------------------|
        ^  ^  ^  ^  ^  ^  ^  ^  ^  ^  ^  ^  ^
     
     Well, I'm goin' out west where I belong  (Figure B)
     Where the days are short and the nights are long  (Figure B)
     
                Figure A
     Where they walk and I'll walk
     They twist and I'll twist
     They shimmy and I'll shimmy
     They fly and I'll fly
     Well they're out there a'havin fun
     In that warm California sun.
     
     Well, I'm goin out west out on the coast
     Where the California girls are really the most
     Where they walk and I'll walk
     They twist and I'll twist
     They shimmy and I'll shimmy
     They fly and I'll fly
     Well they're out there a'havin fun
     In that warm California sun.
     
     (24-second instrumental interlude)
     
     Well the girls are frisky in old Frisco
     A pretty little chick wherever you go
     A-a-and they'll walk and I'll walk
     They'll twist and I'll twist
     They'll shimmy and I'll shimmy
     They'll fly and I'll fly
     Well they're out there a'havin fun
     In that warm California sun
     
     Yeah they're out there a'havin fun
     In that warm California sun








RIVIERAS Chords - california sun Tabs, Tab for Guitar

Site contains RIVIERAS tabs (tablatures), chords, song lyrics of popular songs, compilations.
You may find california sun - RIVIERAS tab, lyric, free tabs for guitars and basses here.


© 2002 TabPower.com All tabs are the author's own work and represents their interpretation of the RIVIERAS song.
You may only use this RIVIERAS tab for private study, scholarship, or research.
california sun Tab by RIVIERAS Tabs/Chords/Tablatures
Online Guitar Lessons