AVENGED SEVENFOLD Tabs, beast and the harlot
Search tabs by artist/band name or song title:  

AVENGED SEVENFOLD Tabs - beast and the harlot Guitar Tablatures, Chords






beast and the harlot tabs @ 911Tabs
#----------------------------------PLEASE NOTE----------------------------------#
# This file is the author's own work and represents their interpretation of the #
# song. You may only use this file for private study, scholarship, or research. #
#-------------------------------------------------------------------------------#

This is my first Tab ever. It took me forever to figure this out.
I hope you are pleased, I know I am.

Tuning: Drop D; Dadgbe

                                  Beast and the Harlot

Intro:
-----------------------------------------------------------
-7-7-6-7-9-10-5-6--6-5-6/8-6-6---6--5--6/8-6-6--6-5-6-8-9\-
-----------------------------------------------------------
-----------------------------------------------------------
-----------------------------------------------------------
-----------------------------------------------------------

-------------------------------------|------------------------------
-9\--11--9-9-11-13-14\-14\--16b(17)--|-Dive-Bomb--------------------
-------------------------------------|(Harmonics-with-whammy)-------
-------------------------------------|------------------------------
-------------------------------------|------------------------------
-------------------------------------|------------------------------

-----------------------------------------------------------------|---
-----------------------------------------------------------------|---
-----------10-----------12-----------13-----------12-----------10|---
12-12-12-12--12-12-12-12--12-12-12-12--12-12-12-12--12-12-12-12--|---
-----------------------------------------------------------------|---
---------------------------------------------------------------X4|---

(4th time you go-

E-------------------------------------------------------------------
B-------------------------------------------------------------------
G-7/-19\\\\---------------------------------------------------------

Verse:
---------------------------------------------------------------
-----------------------------------------------------------------
--------------------------------------------------------------
--------------------------------------------------------------
0000-3-0000-5-0000-6-0000-5-0000-3-5--0000-3-0000-506-0000-3-0000-506----
0000-3-0000-5-0000-6-0000-5-0000-3-5--0000-3-0000-506-0000-3-0000-506-----

--------------|----------------------------------------------------
1st-----------|2nd--------------------------------------------------
--------------|--------------------------------------------------------
--------------|--------------------------------------------------------
-8----5-6-7-8-|----8----5-6-7-8-7-8-9-10---------------------------------
-8----5-6-7-8-|----8----5-6-7-8-7-8-9-10--------------------------------

Chorus:
----8-13-----8-13---8-12--8-12--6-10--6-10--6-10--6-10--------15-------15--------
--10-------10------8-----8-----6-----6-----6-----6----------15-------15----------------
10-------10-------9-----9-----7-----7-----7-----7------12-15----12-15---------------
-----------------------------------------------------------------------
----------------------------------then the higher part is----------
---------------------------------------------------------------

-----8-13----8-13--8-12--8-12--6-10--6-10--13-12-10-8-12-10-9--------------
---10------10-----8-----8-----6-----6-------------------------10------------
-10------10------9-----9-----7-----7--------------------------------------
-----------------------------------------------------------------
----------------------------------------------------------------
------------------------------------------------------------------

-10---13---16-----13-13-12-12-10-----------------------------------------
----------------13---------------8-9-10-11-/////\\\\\\\\----------------------
---------------------------------------------------------
--------------------------------------------------------
--------------------------------------------------------------
--------------------------------------------------------------

Solo:
-17---12-12-12-13-13-12-12--20\\\\\--10--12----10-12-13-----------------
--------------------------------------------------------
-----------------------------------------------------
--------------------------------------------------
-------------------------------------------------
------------------------------------------------------

-17--17-17b(18)--15--12---13-12-13--20~~~~-------------------------------
--------------------------------------------------------------------
-----------------------------------------------------------------------
---------------------------------------------------------------------
-------------------------------------------------------------------
---------------------------------------------------------------------

------------------------------------------------------------------------
----------------------------------------------------------------------------
------------------------------------------------------------------
-0////////15\\\\\\\\3//////////15\\\\\\\\\\\\\5//////////17\\\\\\\\\\9/////19\\\\\\3--
------------------------------------------------------------------------
-----------------------------------------------------------------------

-17\\\\\\\///////////15\\\\\\\\\//////////13\\\\\\\\\\///////13\\\\\\\\\/////12b(13)---
---------------------------------------------------------------------------------
---------------------------------------------------------------------------------
--------------------------------------------------------------------------------
---------------------------------------------------------------------------------
-----------------------------------------------------------------------------------

Bridge:
---------------------------------------10-8---------------------------------
------------------then the higher part-----6-8-9-8-6----6-8-9-8-6----------------
----------------------------------------------------7-7----------7-------
-7-5------------------------------------------------------------------
-5-3-3-5-6-5-3-0-0-3-5-6-5-3-0-----------------------------------------------------
-----3-5-6-5-3-0-0-3-5-6-5-3-0-X4--------------------------------------------------

That's That.

Song order:
Intro
Verse
Chorus
Solo 
Verse 
Chorus
Bridge
Chorus

I hope this helps you out.

Peace love and soul, -Pride Wilder





AVENGED SEVENFOLD Chords - beast and the harlot Tabs, Tab for Guitar

Site contains AVENGED SEVENFOLD tabs (tablatures), chords, song lyrics of popular songs, compilations.
You may find beast and the harlot - AVENGED SEVENFOLD tab, lyric, free tabs for guitars and basses here.


© 2002 TabPower.com All tabs are the author's own work and represents their interpretation of the AVENGED SEVENFOLD song.
You may only use this AVENGED SEVENFOLD tab for private study, scholarship, or research.
beast and the harlot Tab by AVENGED SEVENFOLD Tabs/Chords/Tablatures
Online Guitar Lessons