ROBERTS KANE Tabs, a strong arm needs a stronger heart
Search tabs by artist/band name or song title:  

ROBERTS KANE Tabs - a strong arm needs a stronger heart Guitar Tablatures, Chords






a strong arm needs a stronger heart tabs @ 911Tabs
#----------------------------------PLEASE NOTE----------------------------------#
# This file is the author's own work and represents their interpretation of the #
# song. You may only use this file for private study, scholarship, or research. #
#-------------------------------------------------------------------------------#

Artist: Kane Roberts
Song: A Strom Arm Needs A Stronger Heart
Album: Kane Roberts (AKA Criminal Justice)

Tabbed by: Rod Zombie (rodzombie_89@hotmail.com)

NOTE: I lso submitted this tab on www.ultimate-guitar.com

A beautiful and powerful tune by Kane Roberts, Any comments, email me


Tuning: Dropped D


 Gtr. 1
|-----------------------------------|-------------------------------------|
|-----------------------------------|-------------------------------------|
|-----4-----2-----4-----2-----4~----|-----4-----2-----4-----2-----4~------| REPEAT
|---4-----4-----4-----4-----4--(4)--|---4-----4-----4-----4-----4--(4)----|
|-2-----2-----2-----2-----2---------|-2-----2-----2-----2-----2-----------|
|-----------------------------------|-------------------------------------|
                                    |
                                    |
Gtr. 2                              |
|-----------------------------------|-------------------------------------|
|-----------------------------------|-------------------------------------|
|-----------------------------------|-------------------------------------|
|-----------------------------------|-------------------------------------|
|-----------------------------------|-------------------------------------|
|-----------------------------------|-------------------------------------|




 Gtr. 1
|-----------------------------------|-------------------------------------|
|-----------------------------------|-------------------------------------|
|-----4-----2-----4-----2-----4~----|-----4-----2-----4-----2-----4~------|
|---4-----4-----4-----4-----4--(4)--|---4-----4-----4-----4-----4--(4)----|
|-2-----2-----2-----2-----2---------|-2-----2-----2-----2-----2-----------|
|-----------------------------------|-------------------------------------|
                                    |
                                    |
Gtr. 2                              |
|-----------------------------------|-------------------------------------|
|-----------------------------------|-------------------------------------|
|-4---------------------------------|-2-----------------------------------|
|-4---------------------------------|-2-----------------------------------|
|-2---------------------------------|-0-----------------------------------|
|-----------------------------------|-------------------------------------|


 Gtr. 1
|-----------------------------------|-------------------------------------|
|-----------------------------------|-------------------------------------|
|-----4-----2-----4-----2-----4~----|-----4-----2-------------------2-----| 
|---4-----4-----4-----4-----4--(4)--|---4-----4-----4---------------2-----|
|-2-----2-----2-----2-----2---------|-2-----2-----2-----------------0-----|
|-----------------------------------|-----------------3-3-3-3-3-3-3-------|
                                    |                 . . . . . . .
                                    |
Gtr. 2                              |
|-----------------------------------|-------------------------------------|
|-----------------------------------|-------------------------------------|
|-----------------------------------|-4-----------------------------2-----|
|-2---------------------------------|-4-----------------------------2-----|
|-2---------------------------------|-2-----------------------------0-----|
|-0-----------------------------0-3-|-----------------3-3-3-3-3-3-3-------|
                                                      . . . . . . .

Gtr. 1
|-----------------------------------|-------------3---------------|
|-----------------------------------|-------------3---------------|
|-4-4-4\--------4-4-4\------2~------|-4-4-4\-------------2--------|
|-4-4-4\--------4-4-4\------2~------|-4-4-4\-------------2--------|
|-2-2-2\--------2-2-2\--0-0-0~------|-2-2-2\--0-0----0-0-0--5-4---|
|-----------------------------------|-----------------------------|
                                    |
                                    |
Gtr. 2                              |
|-----------------------------------|-------------3---------------|
|-----------------------------------|-------------3---------------|
|-4-4-4\--------4-4-4\------2~------|-4-4-4\-------------2--------|
|-4-4-4\--------4-4-4\------2~------|-4-4-4\-------------2--------|
|-2-2-2\--------2-2-2\--0-0-0~------|-2-2-2\--0-0----0-0-0--5-4---|
|-----------------------------------|-----------------------------|


Gtr 1.   (Play any lick you want :P)
|-----------------------------------|-------------------------------------|
|-----------------------------------|-------------------------------------|
|-----------------------------------|-------------------------------------|
|-----------------------------------|-------------------------------------|
|-----------------------------------|-------------------------------------|
|-----------------------------------|-------------------------------------|
                                    |
                                    |
Gtr. 2                              |
|-----------------------------------|----------------------------------|
|-----------------------------------|----------------------------------|
|-4-4-4\--------4-4-4\------2~------|-4-4-4\------2------2------2------|
|-4-4-4\--------4-4-4\------2~------|-4-4-4\------2------2------2------|
|-2-2-2\--------2-2-2\--0-0-0~------|-2-2-2\---00-0---00-0---00-0--5-4-|
|-----------------------------------|----------------------------------|
Gtr. 1
|-----------------------------------|-------------3---------------|
|-----------------------------------|-------------3---------------|
|-4-4-4\--------4-4-4\------2~------|-4-4-4\-------------2--------|
|-4-4-4\--------4-4-4\------2~------|-4-4-4\-------------2--------|
|-2-2-2\--------2-2-2\--0-0-0~------|-2-2-2\--0-0----0-0-0--5-4---|
|-----------------------------------|-----------------------------|
                                    |
                                    |
Gtr. 2                              |
|-----------------------------------|-------------3---------------|
|-----------------------------------|-------------3---------------|
|-4-4-4\--------4-4-4\------2~------|-4-4-4\-------------2--------|
|-4-4-4\--------4-4-4\------2~------|-4-4-4\-------------2--------|
|-2-2-2\--------2-2-2\--0-0-0~------|-2-2-2\--0-0----0-0-0--5-4---|
|-----------------------------------|-----------------------------|




Verse:

Gtr. 1
|-----------------------------------|-------------3---------------|
|-----------------------------------|-------------3---------------|
|-4-4-4\--------4-4-4\------2~------|-4-4-4\-------------2--------|
|-4-4-4\--------4-4-4\------2~------|-4-4-4\-------------2--------|
|-2-2-2\--------2-2-2\--0-0-0~------|-2-2-2\--0-0----0-0-0--5-4---|
|-----------------------------------|-----------------------------|
                                    |
                                    |
Gtr. 2                              |
|-----------------------------------|----------------------------------|
|-----------------------------------|----------------------------------|
|-4-4-4\--------4-4-4\------2~------|-4-4-4\------2------2------2------|
|-4-4-4\--------4-4-4\------2~------|-4-4-4\------2------2------2------|
|-2-2-2\--------2-2-2\--0-0-0~------|-2-2-2\---00-0---00-0---00-0--5-4-|
|-----------------------------------|----------------------------------|


Gtr. 1
|-----------------------------------|-------------3---------------|
|-----------------------------------|-------------3---------------|
|-4-4-4\--------4-4-4\------2~------|-4-4-4\-------------2--------|
|-4-4-4\--------4-4-4\------2~------|-4-4-4\-------------2--------|
|-2-2-2\--------2-2-2\--0-0-0~------|-2-2-2\--0-0----0-0-0--5-4---|
|-----------------------------------|-----------------------------|
                                    |
                                    |
Gtr. 2                              |
|-----------------------------------|----------------------------------|
|-----------------------------------|----------------------------------|
|-4-4-4\--------4-4-4\------2~------|-4-4-4\------2------2------2------|
|-4-4-4\--------4-4-4\------2~------|-4-4-4\------2------2------2------|
|-2-2-2\--------2-2-2\--0-0-0~------|-2-2-2\---00-0---00-0---00-0--5-4-|
|-----------------------------------|----------------------------------|






PRE CHORUS (Both Guitars):

A fire inside you...
|------------------||-------------|
|-3~------3~-------||-3-3-3-------|
|-2~--0~--2~--2~---||-2-2-2--2~---|
|-0~--0~--0~--2~---||-0-0-0--2~---|
|-------------0~---||--------0~---|
|-----3~-----------||-------------|


|------------------||------------------------------|
|-3~---------------||------------------------------|
|-2~--0~--4~--2~---||------------------2-2---2-2---|
|-0~--0~--4~--2~---||------------------2-2---2-2---|
|---------2~--0~---||------------------0-0---0-0---|
|-----3~-----------||-3-3-3-3-3-3-3-3--------------|




CHORUS:

Gtr. 1
|-----------------|-------------------------|
|-----------------|------------------7--5---|
|-4~--2-------4---|-7~---------------7--7---|
|-4~--2~--5~--4---|-7~---5~---7~------------|
|-2~--0~--5---2~--|-5~---5~---7~--55--------|
|---------3-------|------3~---5~------------|
                  |
                  |
Gtr. 2            |
|-----------------|-------------------------|
|-----------------|------------------7--5---|
|-4~--2-------4---|-7~---------------7--7---|
|-4~--2~--5~--4---|-7~---5~---7~------------|
|-2~--0~--5---2~--|-5~---5~---7~--55--------|
|------~--3-------|------3~---5~------------|



Gtr. 1                    ... and keeps the dream alive
|---------------|-------------------------|
|---------------|-------------------------|
|-4-2-------4---|-------------------------|
|-4-2~--5~--4---|-2--4--5-----------------|
|-2-0~--5---2~--|-2--4--5-----------------|
|-------3-------|-0--2--3-----------------|
                |
                |
Gtr. 2          |
|---------------|-------------------------|
|---------------|-------------------------|
|-4-2-------4---|-------------------------|
|-4-2~--5~--4---|-2--4--5-----------------|
|-2-0~--5---2~--|-2--4--5-----------------|
|-------3-------|-0--2--3-----------------|





Gtr. 1 (Play Any Lick You Want :P)
|-----------------------------------|-----------------------------|
|-----------------------------------|-----------------------------|
|-----------------------------------|-----------------------------|
|-----------------------------------|-----------------------------|
|-----------------------------------|-----------------------------|
|-----------------------------------|-----------------------------|
                                    |
                                    |
Gtr. 2                              |
|-----------------------------------|-----------------------------|
|-----------------------------------|-----------------------------|
|-4-4-4\--------4-4-4\------2~------|-----------------------------|
|-4-4-4\--------4-4-4\------2~------|-2--4--5---------------------|
|-2-2-2\--------2-2-2\--0-0-0~------|-2--4--5---------------------|
|-----------------------------------|-0--2--3---------------------|





2nd VERSE:

Gtr. 1
|-----------------------------------|-------------3---------------|
|-----------------------------------|-------------3---------------|
|-4-4-4\--------4-4-4\------2~------|-4-4-4\-------------2--------|
|-4-4-4\--------4-4-4\------2~------|-4-4-4\-------------2--------|
|-2-2-2\--------2-2-2\--0-0-0~------|-2-2-2\--0-0----0-0-0--5-4---|
|-----------------------------------|-----------------------------|
                                    |
                                    |
                                    |
                                    |
Gtr. 2  (clean acoustic)            |
|-14--12------12--------------------|-14--12------12--------------|
|---------15------15-12-------------|---------15------------------|
|-----------------------------------|-----------------------------|
|-----------------------------------|-----------------------------|
|-----------------------------------|-----------------------------|
|-----------------------------------|-----------------------------|


Gtr. 1
|-----------------------------------|-------------3---------------|
|-----------------------------------|-------------3---------------|
|-4-4-4\--------4-4-4\------2~------|-4-4-4\-------------2--------|
|-4-4-4\--------4-4-4\------2~------|-4-4-4\-------------2--------|
|-2-2-2\--------2-2-2\--0-0-0~------|-2-2-2\--0-0----0-0-0--5-4---|
|-----------------------------------|-----------------------------|
                                    |
                                    |
                                    |
                                    |
Gtr. 2  (clean acoustic)            |
|-14--12------12--------------------|-14--12------12--------------|
|---------15------15-12-------------|---------15------------------|
|-----------------------------------|-----------------------------|
|-----------------------------------|-----------------------------|
|-----------------------------------|-----------------------------|
|-----------------------------------|-----------------------------|




PRE CHORUS (Both Guitars):

A fire inside you...
|------------------||-------------|
|-3~------3~-------||-3-3-3-------|
|-2~--0~--2~--2~---||-2-2-2--2~---|
|-0~--0~--0~--2~---||-0-0-0--2~---|
|-------------0~---||--------0~---|
|-----3~-----------||-------------|


|------------------||------------------------------|
|-3~---------------||------------------------------|
|-2~--0~--4~--2~---||------------------2-2---2-2---|
|-0~--0~--4~--2~---||------------------2-2---2-2---|
|---------2~--0~---||------------------0-0---0-0---|
|-----3~-----------||-3-3-3-3-3-3-3-3--------------|


CHORUS:

Gtr. 1
|-----------------|-------------------------|
|-----------------|------------------7--5---|
|-4~--2-------4---|-7~---------------7--7---|
|-4~--2~--5~--4---|-7~---5~---7~------------|
|-2~--0~--5---2~--|-5~---5~---7~--55--------|
|---------3-------|------3~---5~------------|
                  |
                  |
Gtr. 2            |
|-----------------|-------------------------|
|-----------------|------------------7--5---|
|-4~--2-------4---|-7~---------------7--7---|
|-4~--2~--5~--4---|-7~---5~---7~------------|
|-2~--0~--5---2~--|-5~---5~---7~--55--------|
|------~--3-------|------3~---5~------------|



Gtr. 1                    ... and keeps the dream alive
|---------------|-------------------------|
|---------------|-------------------------|
|-4-2-------4---|-------------------------|
|-4-2~--5~--4---|-2--4--5-----------------|
|-2-0~--5---2~--|-2--4--5-----------------|
|-------3-------|-0--2--3-----------------|
                |
                |
Gtr. 2          |
|---------------|-------------------------|
|---------------|-------------------------|
|-4-2-------4---|-------------------------|
|-4-2~--5~--4---|-2--4--5-----------------|
|-2-0~--5---2~--|-2--4--5-----------------|
|-------3-------|-0--2--3-----------------|




Then comes the solo, wich the chords are 

G

C
 
Bm



PRE CHORUS (Both Guitars):

A fire inside you...
|------------------||-------------|
|-3~------3~-------||-3-3-3-------|
|-2~--0~--2~--2~---||-2-2-2--2~---|
|-0~--0~--0~--2~---||-0-0-0--2~---|
|-------------0~---||--------0~---|
|-----3~-----------||-------------|


|------------------||----------------------------------|
|-3~---------------||----------------------------------|
|-2~--0~--4~--2~---||------------------2-2---2-2---2-2-|
|-0~--0~--4~--2~---||------------------2-2---2-2---2-2-|
|---------2~--0~---||------------------0-0---0-0---0-0-|
|-----3~-----------||-3-3-3-3-3-3-3-3------------------|


CHORUS:

Gtr. 1
|-----------------|-------------------------|
|-----------------|------------------7--5---|
|-4~--2-------4---|-7~---------------7--7---|
|-4~--2~--5~--4---|-7~---5~---7~------------|
|-2~--0~--5---2~--|-5~---5~---7~--55--------|
|---------3-------|------3~---5~------------|
                  |
                  |
Gtr. 2            |
|-----------------|-------------------------|
|-----------------|------------------7--5---|
|-4~--2-------4---|-7~---------------7--7---|
|-4~--2~--5~--4---|-7~---5~---7~------------|
|-2~--0~--5---2~--|-5~---5~---7~--55--------|
|------~--3-------|------3~---5~------------|



Gtr. 1                    ... and keeps the dream aliveeeeeeeeee
|---------------|-------------------------|
|---------------|-------------------------|
|-4-2-------4---|-------------------------|
|-4-2~--5~--4---|-2--4--5-----------------|
|-2-0~--5---2~--|-2--4--5-----------------|
|-------3-------|-0--2--3-----------------|
                |
                |
Gtr. 2          |
|---------------|-------------------------|
|---------------|-------------------------|
|-4-2-------4---|-------------------------|
|-4-2~--5~--4---|-2--4--5-----------------|
|-2-0~--5---2~--|-2--4--5-----------------|
|-------3-------|-0--2--3-----------------|


Gtr. 1
|-----------------|-------------------------|
|-----------------|------------------7--5---|
|-4~--2-------4---|-7~---------------7--7---|
|-4~--2~--5~--4---|-7~---5~---7~------------|
|-2~--0~--5---2~--|-5~---5~---7~--55--------|
|---------3-------|------3~---5~------------|
                  |
                  |
Gtr. 2            |
|-----------------|-------------------------|
|-----------------|------------------7--5---|
|-4~--2-------4---|-7~---------------7--7---|
|-4~--2~--5~--4---|-7~---5~---7~------------|
|-2~--0~--5---2~--|-5~---5~---7~--55--------|
|------~--3-------|------3~---5~------------|



Gtr. 1                    ... and keeps the dream alive
|---------------|-------------------------|
|---------------|-------------------------|
|-4-2-------4---|-------------2-----------|
|-4-2~--5~--4---|-2--4--5-----2-----------|
|-2-0~--5---2~--|-2--4--5-----0-----------|
|-------3-------|-0--2--3-----------------|
                |
                |
Gtr. 2          |
|---------------|-------------------------|
|---------------|-------------------------|
|-4-2-------4---|-------------------------|
|-4-2~--5~--4---|-2--4--5-----------------|
|-2-0~--5---2~--|-2--4--5-----------------|
|-------3-------|-0--2--3-----------------|



ENDING (Both guitars):


                            |
|-----------------------------------|----------------------------------|
|-----------------------------------|----------------------------------|
|-4-4-4\--------4-4-4\------2~------|-4-4-4\---------------------------|
|-4-4-4\--------4-4-4\------2~------|-4-4-4\---------------------------|
|-2-2-2\--------2-2-2\--0-0-0~------|-2-2-2\----222-222-2255-2---22----|
|-----------------------------------|--------------------------5-------|





ROBERTS KANE Chords - a strong arm needs a stronger heart Tabs, Tab for Guitar

Site contains ROBERTS KANE tabs (tablatures), chords, song lyrics of popular songs, compilations.
You may find a strong arm needs a stronger heart - ROBERTS KANE tab, lyric, free tabs for guitars and basses here.


© 2002 TabPower.com All tabs are the author's own work and represents their interpretation of the ROBERTS KANE song.
You may only use this ROBERTS KANE tab for private study, scholarship, or research.
a strong arm needs a stronger heart Tab by ROBERTS KANE Tabs/Chords/Tablatures
Online Guitar Lessons