LED ZEPPELIN Tabs, tangerine
Search tabs by artist/band name or song title:  

LED ZEPPELIN Tabs - tangerine Guitar Tablatures, Chords






tangerine tabs @ 911Tabs
#----------------------------------PLEASE NOTE----------------------------------#
# This file is the author's own work and represents their interpretation of the #
# song. You may only use this file for private study, scholarship, or research. #
#-------------------------------------------------------------------------------#

Tangerine
Led Zeppelin
Led Zeppelin 3

Capo at 5
Standard Tuning

e-------------------------------------------------------------
B----------------------------------------10-9-10-9-10-9-10-9-
G-------------------------------------------------------------
D-------------------------------------------------------------
A-------------------------------------------------------------
E-------------------------------------------------------------
                                  (Mandolin tabbed out for guitar)

e--5--5--5--5--5--5--5--5--------5--5--5--5--5--5--5---------
B--5--5--5--5--5--5--5--5--5--5--5--5--5--5--5--5--5---------
G--5--5--5--5--5--5--5--5--2--2--5--5--5--5--5--5--5---------
D--2--2--2--2--2--2--2--2--2--2--2--2--2--2--2--2--2---------
A--0--0--0--0--0--0--0--0-------------------------------------
E---------------------------3--3--5--5--5--5--5--5--5---------

Intro:
Acoustic 12 String
e--------------3---3---3---2---2---2-----2--2--3--3-------------
B--1---3---1---0---3---3---3---3---3--3--3--3--3--3-------------
G--2---2---2---2---0---0---2---2---2-----2--2--0--0-------------
D--2---2---2---2---0---0---0---0---0-----0--0-------------------
A--0---0---0---0---2---2----------------------------------------
E------------------3---3-----------------------------------------

e--------------3---3---3---2---2---2---3---3------------------------------
B--1---3---1---0---3---3---3---3---3---1---1------------------------------
G--2---2---2---2---0---0---2---2---2---0---0---0---0-----0-0----0-0------
D--2---2---2---2---0---0---0---0---0---2---2---2---2---2------0----------
A--0---0---0---0---2---2---------------3---3---3---3--3------2------0----
E------------------3---3--------------------------------------------------

e----------------3--3---2---2---2--2--2---2----0----2----------
B--1---1--1--1---3--3---3---3---3--3--3---3----2----3----------
G--2---2--2--2---0--0---2---2---2--2--2---2----3----2----------
D--2---2--2--2---0--0---0---0---0--0--0---0----0----0----------
A--0---0--0--0--------------------------------------------------
E---------------------------------------------------------------

Questions, comments, suggestions, etc.  E-Mail - guitar7masta@yahoo.com





LED ZEPPELIN Chords - tangerine Tabs, Tab for Guitar

Site contains LED ZEPPELIN tabs (tablatures), chords, song lyrics of popular songs, compilations.
You may find tangerine - LED ZEPPELIN tab, lyric, free tabs for guitars and basses here.


© 2002 TabPower.com All tabs are the author's own work and represents their interpretation of the LED ZEPPELIN song.
You may only use this LED ZEPPELIN tab for private study, scholarship, or research.
tangerine Tab by LED ZEPPELIN Tabs/Chords/Tablatures
Online Guitar Lessons