BRUBECK DAVE Tabs, take five
Search tabs by artist/band name or song title:  

BRUBECK DAVE Tabs - take five Guitar Tablatures, Chords






take five tabs @ 911Tabs
#----------------------------------PLEASE NOTE----------------------------------#
# This file is the author's own work and represents their interpretation of the #
# song. You may only use this file for private study, scholarship, or research. #
#-------------------------------------------------------------------------------#

                               Take 5-The Dave Brubeck Quartet
                               The Real Way to play Take 5
                                    Because im tired of everyone else doing it wrong

5/4 timing
most of the notes are eighth notes
Listen to the song to get the timing right                                  
                 
h=hammer
p=pull
/=slide

     Chords for melody A

    Ebm7 Ebm7  Bbm7 
e---------------------------------------------------------------------------------------
B-----7----7---6-------------------------------------------------------------------------
G-----6----6---6------bar your index finger across the 6th fret in each chord-----------
D-----8----8---6-------------------------------------------------------------------------
A---6----6-------------------------------------------------------------------------------
E-------------6--------------------------------------------------------------------------
   
  melody A
e-----------6----------------------------------------------------------------------------
B-----7-9-10-10---------------------------6h7p6------------------------------------------
G----8---------------6--8-hold 3 beats-----------6--8hold 3 beats---6h8p6----------------
D---8-------------8--------------------------------------------------------6--8hold 3beat
A----------------------------------------------------------------------------------------
E----------------------------------------------------------------------------------------
  repeat melody A

  next, melody B, the chords change
                                                                 
e---------------------------------------------------------------------------------------
B----7--------------6--------------4----------------------------------------------------
G---8---8--------5/6---6--------3/4---4-------------------------------------------------
D--------9--6-8-9-------8--4-6-7-------6------------------------------------------------
A---------------------------------------------------------------------------------------
E---------------------------------------------------------------------------------------
    ending 1st time for melody B     
e---------------------------------------------------------------------------------------
B------------------------------------slide right back into beginning of melody B--------
G--------2-3-2-3-4/6hold----6-5-6-7/(8)-------------------------------------------------
D---3-4-6-------------------------------------------------------------------------------
A---------------------------------------------------------------------------------------
E---------------------------------------------------------------------------------------
   ending 2nd time for melody B
e---------------------------------------------------------------------------------------
B---------------------------------------------------------------------------------------
G-------6-4-3-------return to melody A--------------------------------------------------
D---3-6---------------------------------------------------------------------------------
A---------------------------------------------------------------------------------------
E---------------------------------------------------------------------------------------

For the timing, just listen to the song to feel how it goes

I havent learned past this point yet, and i dont know the chords that go with melody B. Thats what i went online to try to find, only to learn that
everyone's a retdard that doesnt know one ounce of music theory or the best(most expedient)way to play melodies. You know i dont really care if people know
music theory or not, its just that if your gonna post a tab, make sure you know what the hell your doing and get it right. thank you
 
Just a side note, if you notice, each little pattern in melody B outlines a chord, thats all the guys doin.

Comments/Corrections send to inductedbeef9@yahoo.com





BRUBECK DAVE Chords - take five Tabs, Tab for Guitar

Site contains BRUBECK DAVE tabs (tablatures), chords, song lyrics of popular songs, compilations.
You may find take five - BRUBECK DAVE tab, lyric, free tabs for guitars and basses here.


© 2002 TabPower.com All tabs are the author's own work and represents their interpretation of the BRUBECK DAVE song.
You may only use this BRUBECK DAVE tab for private study, scholarship, or research.
take five Tab by BRUBECK DAVE Tabs/Chords/Tablatures
Online Guitar Lessons