RIVERMAYA Tabs, hinahanap hanap kita
Search tabs by artist/band name or song title:  

RIVERMAYA Tabs - hinahanap hanap kita Guitar Tablatures, Chords






hinahanap hanap kita tabs @ 911Tabs
#----------------------------------PLEASE NOTE----------------------------------#
# This file is the author's own work and represents their interpretation of the #
# song. You may only use this file for private study, scholarship, or research. #
#-------------------------------------------------------------------------------#

hinahanap hanap kita (bass)
LEGEND: 
   ) = let ring
   b = break
   h = hammer on
   / = slide forward
   \ = slide backward


Intro:

F-----------------------
C-----------------------
G-----------------------
D---6)-----5)---5b------

Stanza 1:

F-----------------------------------------------------------
C-----------------------------------------------------------
G---------5-5b--------5b-----------5-5b--------5b----0)-----
D--3)---3-------3h5-5----5b-3)---3-------3h5-5----5b--------

F-----------------------------------------------------------
C-----------------------------------------------------------
G----1/2----------------------------7-7b--------7b----5)----
D--0-----2-1-0-0-2-2-3-3-4-4-5)---5-------5h7-7----7b-------

F-----------------------------------------------------------
C----7-7b--------7b-----------------------------------------
G--5-------5h7-7----7b----------5-5b-------5b---------------
D------------------------3)---3------3h5-5----5b------------

F-------------------------------
C-------------------------------
G-------------------------------
D--6)-----5)--------------------

F-----------------------------------------------------------
C-----------------------------------------------------------
G---------5-5b--------5b-----------5-5b--------5b----0)-----
D--3)---3-------3h5-5----5b-3)---3-------3h5-5----5b--------

F-----------------------------------------------------------
C-----------------------------------------------------------
G----1/2----------------------------7-7b--------7b----5)----
D--0-----2-1-0-0-2-2-3-3-4-4-5)---5-------5h7-7----7b-------

F-----------------------------------------------------------
C----7-7b--------7b-----------------------------------------
G--5-------5h7-7----7b--------------------------------------
D----------------------3-3)--0--5-5)--0--7-7)--0-9-9h11-9---
             

Chorus 1:

F-----------------------------------------------------------
C-----------------------------------------------------------
G---------5-5b--------5b-----------5-5b--------5b----0)-----
D--3)---3-------3h5-5----5b-3)---3-------3h5-5----5b--------

F-----------------------------------------------------------
C-----------------------------------------------------------
G----1/2----------------------------7-7b--------7b----5)----
D--0-----2-1-0-0-2-2-3-3-4-4-5)---5-------5h7-7----7b-------

F-----------------------------------------------------------
C----7-7b--------7b-----------------------------------------
G--5-------5h7-7----7b----------5-5b-------5b---------------
D------------------------3)---3------3h5-5----5b------------

F-------------------------------
C-------------------------------
G-------------------------------
D--6-6-6-6-5-5-5-5--------------

F-----------------------------------------------------------
C-----------------------------------------------------------
G---------5-5b--------5b-----------5-5b--------5b----0)-----
D--3)---3-------3h5-5----5b-3)---3-------3h5-5----5b--------

F-----------------------------------------------------------
C-----------------------------------------------------------
G----1/2----------------------------7-7b--------7b----5)----
D--0-----2-1-0-0-2-2-3-3-4-4-5)---5-------5h7-7----7b-------

Stanza 2:

F-----------------------------------------------------------
C-----------------------------------------------------------
G---------5-5b--------5b-----------5-5b--------5b----0)-----
D--3)---3-------3h5-5----5b-3)---3-------3h5-5----5b--------

F-----------------------------------------------------------
C-----------------------------------------------------------
G----1/2----------------------------7-7b--------7b----5)----
D--0-----2-1-0-0-2-2-3-3-4-4-5)---5-------5h7-7----7b-------

F-----------------------------------------------------------
C----7-7b--------7b-----------------------------------------
G--5-------5h7-7----7b----------5-5b-------5b---------------
D------------------------3)---3------3h5-5----5b------------

F-------------------------------
C-------------------------------
G--8---8---7---7----------------
D----6---6---5---5--------------

F-----------------------------------------------------------
C-----------------------------------------------------------
G---------5-5b--------5b-----------5-5b--------5b----0)-----
D--3)---3-------3h5-5----5b-3)---3-------3h5-5----5b--------

F-----------------------------------------------------------
C-----------------------------------------------------------
G----1/2----------------------------7-7b--------7b----5)----
D--0-----2-1-0-0-2-2-3-3-4-4-5)---5-------5h7-7----7b-------

F-----------------------------------------------------------
C----7-7b--------7b-----------------------------------------
G--5-------5h7-7----7b--------------------------------------
D----------------------3-3)--0--5-5)--0--7-7)--0-9-9h11-9---

Chorus 2:

F-----------------------------------------------------------
C-----------------------------------------------------------
G---------5-5b--------5b-----------5-5b--------5b----0)-----
D--3)---3-------3h5-5----5b-3)---3-------3h5-5----5b--------

F-----------------------------------------------------------
C-----------------------------------------------------------
G----1/2----------------------------7-7b--------7b----5)----
D--0-----2-1-0-0-2-2-3-3-4-4-5)---5-------5h7-7----7b-------

F-----------------------------------------------------------
C----7-7b--------7b-----------------------------------------
G--5-------5h7-7----7b----------5-5b-------5b---------------
D------------------------3)---3------3h5-5----5b------------

F-------------------------------
C-------------------------------
G--8---8---7---7----------------
D----6---6---5---5--------------

F-----------------------------------------------------------
C-----------------------------------------------------------
G---------5-5b--------5b-----------5-5b--------5b----0)-----
D--3)---3-------3h5-5----5b-3)---3-------3h5-5----5b--------

F-----------------------------------------------------------
C-----------------------------------------------------------
G----1/2----------------------------7-7b--------7b----5)----
D--0-----2-1-0-0-2-2-3-3-4-4-5)---5-------5h7-7----7b-------

Interlude: (this is the silent part)

F--------------------------------------------------------------
C--------------------------------------------------------------
G--3)-----3)---1-----------------------------------------------
D-------3--------4)-----0-5)---3-0)---0-5)---1h31)---6)--5)----

F-----------------------------------------------------------
C-----------------------------------------------------------
G---------5-5b--------5b-----------5-5b--------5b----0)-----
D--3)---3-------3h5-5----5b-3)---3-------3h5-5----5b--------

F-----------------------------------------------------------
C-----------------------------------------------------------
G----1/2----------------------------------------------------
D--0-----2-1-0-0-2-2-3-3-4-4-5b-----5b-5b-5b----------------

F---------------------------------------
C---------------------------------------
G---------------------------------------
D--5b-5b-3)---3-5-5)---0-3-7-9-7-0------

Chorus 3:

F-----------------------------------------------------------
C-----------------------------------------------------------
G---------5-5b--------5b-----------5-5b--------5b----0)-----
D--3)---3-------3h5-5----5b-3)---3-------3h5-5----5b--------

F-----------------------------------------------------------
C-----------------------------------------------------------
G----1/2----------------------------7-7b--------7b----5)----
D--0-----2-1-0-0-2-2-3-3-4-4-5)---5-------5h7-7----7b-------

F-----------------------------------------------------------
C----7-7b--------7b-----------------------------------------
G--5-------5h7-7----7b----------5-5b-------5b---------------
D------------------------3)---3------3h5-5----5b------------

F-------------------------------
C-------------------------------
G--8---8---7---7----------------
D----6---6---5---5--------------

F-----------------------------------------------------------
C-----------------------------------------------------------
G---------5-5b--------5b-----------5-5b--------5b----0)-----
D--3)---3-------3h5-5----5b-3)---3-------3h5-5----5b--------

F-----------------------------------------------------------
C-----------------------------------------------------------
G----1/2----------------------------7-7b--------7b----5)----
D--0-----2-1-0-0-2-2-3-3-4-4-5)---5-------5h7-7----7b-------

F---------------------
C--5h7-5---5----------
G--------7---7-5------
D----------------3----

The whole song ends with:

F------------------------------------
C--7---------------------------------
G----9-7-9-7---7---------------------
D------------9---9-7-9-7----5)-------





RIVERMAYA Chords - hinahanap hanap kita Tabs, Tab for Guitar

Site contains RIVERMAYA tabs (tablatures), chords, song lyrics of popular songs, compilations.
You may find hinahanap hanap kita - RIVERMAYA tab, lyric, free tabs for guitars and basses here.


© 2002 TabPower.com All tabs are the author's own work and represents their interpretation of the RIVERMAYA song.
You may only use this RIVERMAYA tab for private study, scholarship, or research.
hinahanap hanap kita Tab by RIVERMAYA Tabs/Chords/Tablatures
Online Guitar Lessons